Spartito E ritorno da te di Laura Pausini



Oggi presento lo spartito per chitarra della canzone E ritorno da te, tratta dall’album The Best Of Laura Pausini.

 ..DO2...DO2/LA#...DO2/SOL#...DO2/LA#.
e------------------------------------------
B------------------------------------------
G--5--5--5/7--7--7/8--8---8--8\7--5--3--5--
D------------------------------------------
A------------------------------------------
E------------------------------------------

[riff]                            [riff]
E ritorno da te nonostante il mio orgoglio
[riff]                          [riff]
io ritorno perchè altra scelta non c'è.
FAm
Ricordando i giorni a un'altra latitudine__
( DOm e quel tempo e i posti dove ti vedrei )

FAm                           Sol7  Sol7/4  Sol7
recitando i gesti e le parole che....ho perso.

[riff]                              Sol#
E ritorno da te dal silenzio che è in me. 

          SOlm            Do
Tu dimmi se c'è, ancora per me
            Rem
un'altra occasione, un'altra emozione.
            Solm          Do
Se ancora sei tu, ancora di più
          Rem
un'altra canzone, fresca e nuova.
           Solm           Do
Tu dimmi se mai qualcosa di noi
          Fa         Do     Rem
c'è ancora dentro gli occhi tuo__i...
    Solm  Solm7      La#m
oohh  no___......gli  occhi tuoi 

REm DO LA# no no DO no no REm no__ DO LA# DO 

REm   Do     La#          Do     Rem
  E ritorno da te perchè ancora ti voglio
REm   Do     La#           Do        Rem
  (e ritorno da te contro il vento che  c'è )

REm   Do       La#      Do       Rem
  io ritorno perchè ho bisogno di te. 

DO LA# DO

SOLm                                Rem
Respirare fuori da questa inquietudine

( e REm ritrovare mani forti su di te )

  Solm                          La7
e  non sentirmi sempre così fragile 

No ! No!
                Solm            Do
Tu dimmi solo se c'è, ancora per me
            Rem
un'altra occasione, un'altra emozione.
                  Solm          Do
Dimmi se ancora sei tu, ancora di più
            Rem
la nostra canzone che risuona.
             Solm           Do
Tu dimmi se ormai qualcosa di noi
          Fa         Do      Rem
c'è ancora dentro gli occhi tuoi...
    Solm    Do
oohh  no__oouuuhhh____

.............LA#m.........RE#............FAm.
e----6/8-6-4/6-6----6/8-6-4-6----6/8-6-4-4/6-4-4/6-4p3-3-4--
B--6--------------6------------6----------------------------
G-----------------------------------------------------------
D-----------------------------------------------------------
A-----------------------------------------------------------
E-----------------------------------------------------------

LA#m        Re#
Se ancora sei tu__
      Fam
una canzone fresca e nuova.
              La#           Re#
Tu dimmi se ormai qualcosa di noi
          Sol#       Re#   Fam
c'è ancora dentro gli occhi tuoi___...
   La#m            Do#m
oohh  no___......gli occhi tuoi

.....FAm.......RE#.......DO#......RE#.......FAm.
e------------------------------------------------1---
B------1---------------------------------------1-----
G----1---1-------8---------6----------8------1-------
D--3-----------8---8-----6---6------8------3---------
A------------6---------4----------6------------------
E----------------------------------------1-----------

Dimmi solo se c'è e ritorno da te.

I vostri commenti: